Forum Thread: Tabs for Make Do & Mend- Shambles/Winter Wasteland?

Tabs for Make Do & Mend- Shambles/Winter Wasteland?

Hello, i have been playing guitar for about two years now. I don't take any lessons and am basically self taught. I'm desperate to learn the acoustic version on "Make Do & Mend- Shambles/Winter Waste Land" I have looked every where for the tabs, but they are nowhere to be found. The acoustic version of this song is amazing and i'm in love with the lyrics, please please can you help?

4 Responses

So as a lot of people like this song and so do I, I watched their nervous energies video over and over to figure out the tabs for this amazing song.

In fact it's so easy to learn because they only use power chords and so even a beginner should try.

Well I think they play it in Standard Tuning.

Tabbed by: Ryan Ferrell
Email: mamyleaks@gmail.com

Tuning: Standard

Guitar one:

e|---------------------------------------------------------------------|
B|---------------0----------------------0----------------------------|
G|----------0--------0-------------0--------0-----------------------|
D|--------5---5----5---5---------4---4----4---4-------------------|
A|-----7----------------------5---------------------------------------|
E|---------------------------------------------------------------------|

e|----------------------------------------------------------------------|
B|---------------0------------------------------------------------------|
G|----------0--------0--------------0--------0------------------------|
D|--------7---7----7---7----------9---9----9---9b------------------|
A|-----9----------------------10---------------------------------------|
E|-----------------------------------------------------------------------|

Rest of the song is really simple. once you figured out the strumming pattern it's only. (Note These are only the chords used. It's not the pattern nor the right order)

e|----0----0----0----0------|
B|----0----0----0----0------|
G|----x----x----x----x------|
D|----5----4----7----9------|
A|----7----5----9---10------|
E|--------------------------|

I hope you can appreciate this as much as I did. Comment and rate please :)

************************************

| /   slide up
| \   slide down
| h   hammer-on
| p   pull-off
| ~   vibrato
| +   harmonic
| x   Mute note
| b   Bend
| pb  Pre-bend
| br  Bend release
| pbr Pre-bend release
| brb Bend release bend

************************************

Ryan

e|---------------------------------------------------------------------|
B|---------------0----------------------0----------------------------|
G|----------0------------------------0-------------------------------|
D|--------5---5----5----5-------4----4----4----4-------------------|
A|-----7--------------7-------5------------ ---4---------------------------|
E|---------------------------------------------------------------------|

e|----------------------------------------------------------------------|
B|---------------0------------------------------------------------------|
G|----------0-------------------------0--------0------------------------|
D|--------7---7----7---7----------9---9----9---9b------------------|
A|-----9---------------9-------10---------------------------------------|
E|-----------------------------------------------------------------------|

Very good tab, but I was playing it and found that this was the right thing. I take no credit for your work. I just altered your work and make do and mend'd it :P

Yeah I was so wrong. Really good. work :) 

Thank you, so much, this was really helpful!!! 

Share Your Thoughts